Tuesday, December 8, 2009

Stay Tuned

Guess what, a year flies by really quickly.

Another post is coming soon.

God Bless

Here is a little tab for a friend.



Heartbreaker Breakdown Section

I
-------------------------------------------------
-------------------------------------------------
-------------------------------------------------
--1---3---------------------1--0--1---3----------
----------3---1---------------------------3---1--
------------------5--4--1------------------------

III
-------------------------------------------------
-------------------------------------------------
-------------------------------------------------
----6--5--3-----------------------5---3----------
-------------6--4--3-------3--4------------------
-----------------------6-------------------------

III
-------------------------------------------------
-------------------------------------------------
----------5--------5--------5---------5----------
-------------------------------------------------
---3--3------3--3-----3--3------3--3-------------
-------------------------------------------------

III
-------------------------------------------------
-------------------------------------------------
-------------------------------------------------
--5-5-5-5-5-5-5-5-5-5-5-5-5-5-5-5---3------------
--3-3-3-3-3-3-3-3-3-3-3-3-3-3-3-3---3------------
------------------------------------1------------